  0
SECTION
  2
HEADER
  9
$ACADVER
  1
AC1015
  9
$ACADMAINTVER
 70
     6
  9
$DWGCODEPAGE
  3
ANSI_1254
  9
$INSBASE
 10
0.0
 20
0.0
 30
0.0
  9
$EXTMIN
 10
0.0
 20
0.0
 30
0.0
  9
$EXTMAX
 10
279.4
 20
215.9
 30
0.0
  9
$LIMMIN
 10
0.0
 20
0.0
  9
$LIMMAX
 10
279.4
 20
215.9
  9
$ORTHOMODE
 70
     0
  9
$REGENMODE
 70
     1
  9
$FILLMODE
 70
     1
  9
$QTEXTMODE
 70
     0
  9
$MIRRTEXT
 70
     1
  9
$LTSCALE
 40
1.0
  9
$ATTMODE
 70
     1
  9
$TEXTSIZE
 40
3.5
  9
$TRACEWID
 40
1.0
  9
$TEXTSTYLE
  7
Standard
  9
$CLAYER
  8
0
  9
$CELTYPE
  6
ByLayer
  9
$CECOLOR
 62
   256
  9
$CELTSCALE
 40
1.0
  9
$DISPSILH
 70
     0
  9
$DIMSCALE
 40
1.0
  9
$DIMASZ
 40
3.5
  9
$DIMEXO
 40
1.0
  9
$DIMDLI
 40
3.75
  9
$DIMRND
 40
0.0
  9
$DIMDLE
 40
0.0
  9
$DIMEXE
 40
1.0
  9
$DIMTP
 40
0.0
  9
$DIMTM
 40
0.0
  9
$DIMTXT
 40
3.5
  9
$DIMCEN
 40
2.5
  9
$DIMTSZ
 40
0.0
  9
$DIMTOL
 70
     0
  9
$DIMLIM
 70
     0
  9
$DIMTIH
 70
     1
  9
$DIMTOH
 70
     1
  9
$DIMSE1
 70
     0
  9
$DIMSE2
 70
     0
  9
$DIMTAD
 70
     1
  9
$DIMZIN
 70
     0
  9
$DIMBLK
  1

  9
$DIMASO
 70
     1
  9
$DIMSHO
 70
     1
  9
$DIMPOST
  1

  9
$DIMAPOST
  1

  9
$DIMALT
 70
     0
  9
$DIMALTD
 70
     3
  9
$DIMALTF
 40
0.0393700787
  9
$DIMLFAC
 40
1.0
  9
$DIMTOFL
 70
     1
  9
$DIMTVP
 40
0.0
  9
$DIMTIX
 70
     0
  9
$DIMSOXD
 70
     0
  9
$DIMSAH
 70
     0
  9
$DIMBLK1
  1

  9
$DIMBLK2
  1

  9
$DIMSTYLE
  2
ISO-25
  9
$DIMCLRD
 70
     0
  9
$DIMCLRE
 70
     0
  9
$DIMCLRT
 70
     0
  9
$DIMTFAC
 40
1.0
  9
$DIMGAP
 40
1.524
  9
$DIMJUST
 70
     0
  9
$DIMSD1
 70
     0
  9
$DIMSD2
 70
     0
  9
$DIMTOLJ
 70
     0
  9
$DIMTZIN
 70
     0
  9
$DIMALTZ
 70
     0
  9
$DIMALTTZ
 70
     0
  9
$DIMUPT
 70
     0
  9
$DIMDEC
 70
     2
  9
$DIMTDEC
 70
     2
  9
$DIMALTU
 70
     2
  9
$DIMALTTD
 70
     3
  9
$DIMTXSTY
  7
Standard
  9
$DIMAUNIT
 70
     0
  9
$DIMADEC
 70
     2
  9
$DIMALTRND
 40
0.0
  9
$DIMAZIN
 70
     0
  9
$DIMDSEP
 70
    44
  9
$DIMATFIT
 70
     3
  9
$DIMFRAC
 70
     0
  9
$DIMLDRBLK
  1

  9
$DIMLUNIT
 70
     2
  9
$DIMLWD
 70
    -2
  9
$DIMLWE
 70
    -2
  9
$DIMTMOVE
 70
     0
  9
$LUNITS
 70
     2
  9
$LUPREC
 70
     2
  9
$SKETCHINC
 40
1.0
  9
$FILLETRAD
 40
10.0
  9
$AUNITS
 70
     0
  9
$AUPREC
 70
     2
  9
$MENU
  1
.
  9
$ELEVATION
 40
0.0
  9
$PELEVATION
 40
0.0
  9
$THICKNESS
 40
0.0
  9
$LIMCHECK
 70
     0
  9
$CHAMFERA
 40
0.0
  9
$CHAMFERB
 40
0.0
  9
$CHAMFERC
 40
0.0
  9
$CHAMFERD
 40
0.0
  9
$SKPOLY
 70
     0
  9
$TDCREATE
 40
2458985.699735417
  9
$TDUCREATE
 40
2458985.574735417
  9
$TDUPDATE
 40
2458985.699735914
  9
$TDUUPDATE
 40
2458985.574735914
  9
$TDINDWG
 40
0.0000000116
  9
$TDUSRTIMER
 40
0.0000000116
  9
$USRTIMER
 70
     1
  9
$ANGBASE
 50
0.0
  9
$ANGDIR
 70
     0
  9
$PDMODE
 70
     0
  9
$PDSIZE
 40
-1.0
  9
$PLINEWID
 40
0.0
  9
$SPLFRAME
 70
     0
  9
$SPLINETYPE
 70
     6
  9
$SPLINESEGS
 70
     8
  9
$HANDSEED
  5
F1
  9
$SURFTAB1
 70
     6
  9
$SURFTAB2
 70
     6
  9
$SURFTYPE
 70
     6
  9
$SURFU
 70
     6
  9
$SURFV
 70
     6
  9
$UCSBASE
  2

  9
$UCSNAME
  2

  9
$UCSORG
 10
0.0
 20
0.0
 30
0.0
  9
$UCSXDIR
 10
1.0
 20
0.0
 30
0.0
  9
$UCSYDIR
 10
0.0
 20
1.0
 30
0.0
  9
$UCSORTHOREF
  2

  9
$UCSORTHOVIEW
 70
     0
  9
$UCSORGTOP
 10
0.0
 20
0.0
 30
0.0
  9
$UCSORGBOTTOM
 10
0.0
 20
0.0
 30
0.0
  9
$UCSORGLEFT
 10
0.0
 20
0.0
 30
0.0
  9
$UCSORGRIGHT
 10
0.0
 20
0.0
 30
0.0
  9
$UCSORGFRONT
 10
0.0
 20
0.0
 30
0.0
  9
$UCSORGBACK
 10
0.0
 20
0.0
 30
0.0
  9
$PUCSBASE
  2

  9
$PUCSNAME
  2

  9
$PUCSORG
 10
0.0
 20
0.0
 30
0.0
  9
$PUCSXDIR
 10
1.0
 20
0.0
 30
0.0
  9
$PUCSYDIR
 10
0.0
 20
1.0
 30
0.0
  9
$PUCSORTHOREF
  2

  9
$PUCSORTHOVIEW
 70
     0
  9
$PUCSORGTOP
 10
0.0
 20
0.0
 30
0.0
  9
$PUCSORGBOTTOM
 10
0.0
 20
0.0
 30
0.0
  9
$PUCSORGLEFT
 10
0.0
 20
0.0
 30
0.0
  9
$PUCSORGRIGHT
 10
0.0
 20
0.0
 30
0.0
  9
$PUCSORGFRONT
 10
0.0
 20
0.0
 30
0.0
  9
$PUCSORGBACK
 10
0.0
 20
0.0
 30
0.0
  9
$USERI1
 70
     0
  9
$USERI2
 70
     0
  9
$USERI3
 70
     0
  9
$USERI4
 70
     0
  9
$USERI5
 70
     0
  9
$USERR1
 40
0.0
  9
$USERR2
 40
0.0
  9
$USERR3
 40
0.0
  9
$USERR4
 40
0.0
  9
$USERR5
 40
0.0
  9
$WORLDVIEW
 70
     1
  9
$SHADEDGE
 70
     3
  9
$SHADEDIF
 70
    70
  9
$TILEMODE
 70
     1
  9
$MAXACTVP
 70
    64
  9
$PINSBASE
 10
0.0
 20
0.0
 30
0.0
  9
$PLIMCHECK
 70
     0
  9
$PEXTMIN
 10
1.0000000000E+20
 20
1.0000000000E+20
 30
1.0000000000E+20
  9
$PEXTMAX
 10
-1.0000000000E+20
 20
-1.0000000000E+20
 30
-1.0000000000E+20
  9
$PLIMMIN
 10
0.0
 20
0.0
  9
$PLIMMAX
 10
420.0
 20
297.0
  9
$UNITMODE
 70
     0
  9
$VISRETAIN
 70
     1
  9
$PLINEGEN
 70
     0
  9
$PSLTSCALE
 70
     1
  9
$TREEDEPTH
 70
  3020
  9
$CMLSTYLE
  2
Standard
  9
$CMLJUST
 70
     0
  9
$CMLSCALE
 40
20.0
  9
$PROXYGRAPHICS
 70
     1
  9
$MEASUREMENT
 70
     1
  9
$CELWEIGHT
370
    -1
  9
$ENDCAPS
280
     0
  9
$JOINSTYLE
280
     0
  9
$LWDISPLAY
290
     1
  9
$INSUNITS
 70
     4
  9
$HYPERLINKBASE
  1

  9
$STYLESHEET
  1

  9
$XEDIT
290
     1
  9
$CEPSNTYPE
380
     0
  9
$PSTYLEMODE
290
     1
  9
$FINGERPRINTGUID
  2
{d07eb591-0673-436d-9699-ec64c32b2a50}
  9
$VERSIONGUID
  2
{FAEB1C32-E019-11D5-929B-00C0DF256EC4}
  9
$EXTNAMES
290
     1
  9
$PSVPSCALE
 40
0.0
  9
$OLESTARTUP
290
     0
  0
ENDSEC
  0
SECTION
  2
CLASSES
  0
CLASS
  1
ACDBDICTIONARYWDFLT
  2
AcDbDictionaryWithDefault
  3
ObjectDBX Classes
 90
        0
280
     0
281
     0
  0
CLASS
  1
VISUALSTYLE
  2
AcDbVisualStyle
  3
ObjectDBX Classes
 90
     4095
280
     0
281
     0
  0
CLASS
  1
MATERIAL
  2
AcDbMaterial
  3
ObjectDBX Classes
 90
     1153
280
     0
281
     0
  0
CLASS
  1
SCALE
  2
AcDbScale
  3
ObjectDBX Classes
 90
     1153
280
     0
281
     0
  0
CLASS
  1
TABLESTYLE
  2
AcDbTableStyle
  3
ObjectDBX Classes
 90
     4095
280
     0
281
     0
  0
CLASS
  1
MLEADERSTYLE
  2
AcDbMLeaderStyle
  3
ACDB_MLEADERSTYLE_CLASS
 90
     4095
280
     0
281
     0
  0
CLASS
  1
SUN
  2
AcDbSun
  3
SCENEOE
 90
     1153
280
     0
281
     0
  0
CLASS
  1
ACDBPLACEHOLDER
  2
AcDbPlaceHolder
  3
ObjectDBX Classes
 90
        0
280
     0
281
     0
  0
CLASS
  1
LAYOUT
  2
AcDbLayout
  3
ObjectDBX Classes
 90
        0
280
     0
281
     0
  0
ENDSEC
  0
SECTION
  2
TABLES
  0
TABLE
  2
VPORT
  5
8
330
0
100
AcDbSymbolTable
 70
     1
  0
VPORT
  5
29
330
8
100
AcDbSymbolTableRecord
100
AcDbViewportTableRecord
  2
*Active
 70
     0
 10
0.0
 20
0.0
 11
1.0
 21
1.0
 12
139.7
 22
107.95
 13
0.0
 23
0.0
 14
10.0
 24
10.0
 15
10.0
 25
10.0
 16
0.0
 26
0.0
 36
1.0
 17
0.0
 27
0.0
 37
0.0
 40
215.9
 41
1.2941176471
 42
50.0
 43
0.0
 44
0.0
 50
0.0
 51
0.0
 71
     0
 72
  2000
 73
     1
 74
     3
 75
     0
 76
     0
 77
     0
 78
     0
281
     0
 65
     1
110
0.0
120
0.0
130
0.0
111
1.0
121
0.0
131
0.0
112
0.0
122
1.0
132
0.0
 79
     0
146
0.0
  0
ENDTAB
  0
TABLE
  2
LTYPE
  5
5
330
0
100
AcDbSymbolTable
 70
     6
  0
LTYPE
  5
14
330
5
100
AcDbSymbolTableRecord
100
AcDbLinetypeTableRecord
  2
ByBlock
 70
     0
  3

 72
    65
 73
     0
 40
0.0
  0
LTYPE
  5
15
330
5
100
AcDbSymbolTableRecord
100
AcDbLinetypeTableRecord
  2
ByLayer
 70
     0
  3

 72
    65
 73
     0
 40
0.0
  0
LTYPE
  5
16
330
5
100
AcDbSymbolTableRecord
100
AcDbLinetypeTableRecord
  2
Continuous
 70
     0
  3
Solid line
 72
    65
 73
     0
 40
0.0
  0
LTYPE
  5
6E
330
5
100
AcDbSymbolTableRecord
100
AcDbLinetypeTableRecord
  2
HIDDEN
 70
     0
  3
Hidden __ __ __ __ __ __ __ __ __ __ __ __ __ __
 72
    65
 73
     2
 40
1.905
 49
1.27
 74
     0
 49
-0.635
 74
     0
  0
LTYPE
  5
6F
330
5
100
AcDbSymbolTableRecord
100
AcDbLinetypeTableRecord
  2
PHANTOM
 70
     0
  3
Phantom ______  __  __  ______  __  __  ______
 72
    65
 73
     6
 40
12.7
 49
6.35
 74
     0
 49
-1.27
 74
     0
 49
1.27
 74
     0
 49
-1.27
 74
     0
 49
1.27
 74
     0
 49
-1.27
 74
     0
  0
LTYPE
  5
70
330
5
100
AcDbSymbolTableRecord
100
AcDbLinetypeTableRecord
  2
CENTER
 70
     0
  3
Center ____ _ ____ _ ____ _ ____ _ ____ _ ____
 72
    65
 73
     4
 40
10.16
 49
6.35
 74
     0
 49
-1.27
 74
     0
 49
1.27
 74
     0
 49
-1.27
 74
     0
  0
LTYPE
  5
71
330
5
100
AcDbSymbolTableRecord
100
AcDbLinetypeTableRecord
  2
CENTERX2
 70
     0
  3
Center (2x) ________  __  ________  __  _____
 72
    65
 73
     4
 40
20.32
 49
12.7
 74
     0
 49
-2.54
 74
     0
 49
2.54
 74
     0
 49
-2.54
 74
     0
  0
LTYPE
  5
72
330
5
100
AcDbSymbolTableRecord
100
AcDbLinetypeTableRecord
  2
DOT2
 70
     0
  3
Dot (.5x) ........................................
 72
    65
 73
     2
 40
0.635
 49
0.0
 74
     0
 49
-0.635
 74
     0
  0
ENDTAB
  0
TABLE
  2
LAYER
  5
2
330
0
100
AcDbSymbolTable
 70
    17
  0
LAYER
  5
10
330
2
100
AcDbSymbolTableRecord
100
AcDbLayerTableRecord
  2
0
 70
     0
 62
     7
  6
Continuous
370
    -3
390
F
  0
LAYER
  5
73
330
2
100
AcDbSymbolTableRecord
100
AcDbLayerTableRecord
  2
FORMAT
 70
     0
 62
     7
  6
Continuous
370
    -3
390
F
  0
LAYER
  5
74
330
2
100
AcDbSymbolTableRecord
100
AcDbLayerTableRecord
  2
YARDIMCI_GEOMETRI
 70
     0
 62
    -6
  6
Continuous
290
     0
370
    -3
390
F
  0
LAYER
  5
75
330
2
100
AcDbSymbolTableRecord
100
AcDbLayerTableRecord
  2
SAYFA_CERCEVESI
 70
     0
 62
     7
  6
Continuous
370
    25
390
F
  0
LAYER
  5
76
330
2
100
AcDbSymbolTableRecord
100
AcDbLayerTableRecord
  2
ANTET
 70
     0
 62
     7
  6
Continuous
370
    -3
390
F
  0
LAYER
  5
77
330
2
100
AcDbSymbolTableRecord
100
AcDbLayerTableRecord
  2
OLCU
 70
     0
 62
   150
  6
Continuous
370
    -3
390
F
  0
LAYER
  5
78
330
2
100
AcDbSymbolTableRecord
100
AcDbLayerTableRecord
  2
METIN
 70
     0
 62
    96
  6
Continuous
370
    -3
390
F
  0
LAYER
  5
79
330
2
100
AcDbSymbolTableRecord
100
AcDbLayerTableRecord
  2
BALON
 70
     0
 62
     5
  6
Continuous
370
    -3
390
F
  0
LAYER
  5
7A
330
2
100
AcDbSymbolTableRecord
100
AcDbLayerTableRecord
  2
VURGU
 70
     0
 62
     7
  6
Continuous
370
    -3
390
F
  0
LAYER
  5
7B
330
2
100
AcDbSymbolTableRecord
100
AcDbLayerTableRecord
  2
SILIK
 70
     0
 62
     7
  6
Continuous
370
    -3
390
F
  0
LAYER
  5
7C
330
2
100
AcDbSymbolTableRecord
100
AcDbLayerTableRecord
  2
MODEL
 70
     0
 62
     7
  6
Continuous
370
    -3
390
F
  0
LAYER
  5
7D
330
2
100
AcDbSymbolTableRecord
100
AcDbLayerTableRecord
  2
DETAYLANDıRMA
 70
     0
 62
   190
  6
Continuous
370
    -3
390
F
  0
LAYER
  5
7E
330
2
100
AcDbSymbolTableRecord
100
AcDbLayerTableRecord
  2
TOLERANS
 70
     0
 62
   230
  6
Continuous
370
    -3
390
F
  0
LAYER
  5
7F
330
2
100
AcDbSymbolTableRecord
100
AcDbLayerTableRecord
  2
MERKEZ_CIZGILERI
 70
     0
 62
    30
  6
Continuous
370
    -3
390
F
  0
LAYER
  5
80
330
2
100
AcDbSymbolTableRecord
100
AcDbLayerTableRecord
  2
KESIT-DETAY_CIZGILERI
 70
     0
 62
     7
  6
Continuous
370
    -3
390
F
  0
LAYER
  5
81
330
2
100
AcDbSymbolTableRecord
100
AcDbLayerTableRecord
  2
\U+041E\U+0421\U+0415\U+0412\U+042B\U+0415
 70
     0
 62
     7
  6
Continuous
370
    -3
390
F
  0
LAYER
  5
82
330
2
100
AcDbSymbolTableRecord
100
AcDbLayerTableRecord
  2
\U+0412\U+041E\U+0414\U+042F\U+041D\U+042B\U+0415_\U+0417\U+041D\U+0410\U+041A\U+0418
 70
     0
 62
    11
  6
Continuous
370
    -3
390
F
  0
ENDTAB
  0
TABLE
  2
STYLE
  5
3
330
0
100
AcDbSymbolTable
 70
     1
  0
STYLE
  5
11
330
3
100
AcDbSymbolTableRecord
100
AcDbTextStyleTableRecord
  2
Standard
 70
     0
 40
0.0
 41
1.0
 50
0.0
 71
     0
 42
3.5
  3
txt
  4

  0
ENDTAB
  0
TABLE
  2
VIEW
  5
6
330
0
100
AcDbSymbolTable
 70
     0
  0
ENDTAB
  0
TABLE
  2
UCS
  5
7
330
0
100
AcDbSymbolTable
 70
     0
  0
ENDTAB
  0
TABLE
  2
APPID
  5
9
330
0
100
AcDbSymbolTable
 70
     1
  0
APPID
  5
12
330
9
100
AcDbSymbolTableRecord
100
AcDbRegAppTableRecord
  2
ACAD
 70
     0
  0
ENDTAB
  0
TABLE
  2
DIMSTYLE
  5
A
330
0
100
AcDbSymbolTable
 70
     1
100
AcDbDimStyleTable
  0
DIMSTYLE
105
27
330
A
100
AcDbSymbolTableRecord
100
AcDbDimStyleTableRecord
  2
ISO-25
 70
     0
 41
2.5
 42
0.625
 43
3.75
 44
1.25
 73
     0
 74
     0
 77
     1
 78
     8
140
2.5
141
2.5
143
0.0393700787
147
0.625
171
     3
172
     1
178
     0
271
     2
272
     2
274
     3
278
    44
283
     0
284
     8
340
11
  0
ENDTAB
  0
TABLE
  2
BLOCK_RECORD
  5
1
330
0
100
AcDbSymbolTable
 70
     2
  0
BLOCK_RECORD
  5
1F
330
1
100
AcDbSymbolTableRecord
100
AcDbBlockTableRecord
  2
*Model_Space
340
22
  0
BLOCK_RECORD
  5
1B
330
1
100
AcDbSymbolTableRecord
100
AcDbBlockTableRecord
  2
*Paper_Space
340
1E
  0
BLOCK_RECORD
  5
23
330
1
100
AcDbSymbolTableRecord
100
AcDbBlockTableRecord
  2
*Paper_Space0
340
26
  0
BLOCK_RECORD
  5
88
330
1
100
AcDbSymbolTableRecord
100
AcDbBlockTableRecord
  2
SW_CENTERMARKSYMBOL_0
340
0
102
{BLKREFS
331
93
102
}
  0
ENDTAB
  0
ENDSEC
  0
SECTION
  2
BLOCKS
  0
BLOCK
  5
20
330
1F
100
AcDbEntity
  8
0
100
AcDbBlockBegin
  2
*Model_Space
 70
     0
 10
0.0
 20
0.0
 30
0.0
  3
*Model_Space
  1

  0
ENDBLK
  5
21
330
1F
100
AcDbEntity
  8
0
100
AcDbBlockEnd
  0
BLOCK
  5
1C
330
1B
100
AcDbEntity
 67
     1
  8
0
100
AcDbBlockBegin
  2
*Paper_Space
 70
     0
 10
0.0
 20
0.0
 30
0.0
  3
*Paper_Space
  1

  0
ENDBLK
  5
1D
330
1B
100
AcDbEntity
 67
     1
  8
0
100
AcDbBlockEnd
  0
BLOCK
  5
24
330
23
100
AcDbEntity
  8
0
100
AcDbBlockBegin
  2
*Paper_Space0
 70
     0
 10
0.0
 20
0.0
 30
0.0
  3
*Paper_Space0
  1

  0
ENDBLK
  5
25
330
23
100
AcDbEntity
  8
0
100
AcDbBlockEnd
  0
BLOCK
  5
89
330
88
100
AcDbEntity
  8
0
100
AcDbBlockBegin
  2
SW_CENTERMARKSYMBOL_0
 70
     0
 10
0.0
 20
0.0
 30
0.0
  3
SW_CENTERMARKSYMBOL_0
  1

  0
LINE
  5
8B
330
88
100
AcDbEntity
  8
FORMAT
 62
     0
100
AcDbLine
 10
0.0
 20
0.0
 30
0.0
 11
0.0
 21
2.5
 31
0.0
  0
LINE
  5
8C
330
88
100
AcDbEntity
  8
FORMAT
 62
     0
100
AcDbLine
 10
0.0
 20
0.0
 30
0.0
 11
-2.5
 21
0.0
 31
0.0
  0
LINE
  5
8D
330
88
100
AcDbEntity
  8
FORMAT
 62
     0
100
AcDbLine
 10
0.0
 20
0.0
 30
0.0
 11
0.0
 21
-2.5
 31
0.0
  0
LINE
  5
8E
330
88
100
AcDbEntity
  8
FORMAT
 62
     0
100
AcDbLine
 10
0.0
 20
0.0
 30
0.0
 11
2.5
 21
0.0
 31
0.0
  0
LINE
  5
8F
330
88
100
AcDbEntity
  8
FORMAT
 62
     0
100
AcDbLine
 10
0.0
 20
5.0
 30
0.0
 11
0.0
 21
142.5
 31
0.0
  0
LINE
  5
90
330
88
100
AcDbEntity
  8
FORMAT
 62
     0
100
AcDbLine
 10
-5.0
 20
0.0
 30
0.0
 11
-142.5
 21
0.0
 31
0.0
  0
LINE
  5
91
330
88
100
AcDbEntity
  8
FORMAT
 62
     0
100
AcDbLine
 10
0.0
 20
-5.0
 30
0.0
 11
0.0
 21
-142.5
 31
0.0
  0
LINE
  5
92
330
88
100
AcDbEntity
  8
FORMAT
 62
     0
100
AcDbLine
 10
5.0
 20
0.0
 30
0.0
 11
142.5
 21
0.0
 31
0.0
  0
ENDBLK
  5
8A
330
88
100
AcDbEntity
  8
0
100
AcDbBlockEnd
  0
ENDSEC
  0
SECTION
  2
ENTITIES
  0
CIRCLE
  5
83
330
1F
100
AcDbEntity
  8
0
  6
Continuous
 62
     7
370
    25
100
AcDbCircle
 10
139.395004093
 20
107.5851680021
 30
0.0
 40
140.0
  0
CIRCLE
  5
84
330
1F
100
AcDbEntity
  8
0
  6
Continuous
 62
     7
370
    25
100
AcDbCircle
 10
139.395004093
 20
107.5851680021
 30
0.0
 40
114.6
  0
CIRCLE
  5
85
330
1F
100
AcDbEntity
  8
0
  6
Continuous
 62
     7
370
    25
100
AcDbCircle
 10
139.395004093
 20
107.5851680021
 30
0.0
 40
114.3087095579742
  0
CIRCLE
  5
86
330
1F
100
AcDbEntity
  8
0
  6
Continuous
 62
     7
370
    25
100
AcDbCircle
 10
139.395004093
 20
107.5851680021
 30
0.0
 40
92.29129044202585
  0
CIRCLE
  5
87
330
1F
100
AcDbEntity
  8
0
  6
Continuous
 62
     7
370
    25
100
AcDbCircle
 10
139.395004093
 20
107.5851680021
 30
0.0
 40
92.00000000000003
  0
INSERT
  5
93
330
1F
100
AcDbEntity
  8
FORMAT
 62
     7
100
AcDbBlockReference
  2
SW_CENTERMARKSYMBOL_0
 10
139.395004093
 20
107.5851680021
 30
0.0
  0
ARC
  5
94
330
1F
100
AcDbEntity
  8
0
  6
Continuous
 62
     7
370
    25
100
AcDbCircle
 10
-321.4432443739
 20
245.5851680021
 30
0.0
 40
2.0
100
AcDbArc
 50
70.3461759419
 51
90.0
  0
ARC
  5
95
330
1F
100
AcDbEntity
  8
0
  6
Continuous
 62
     7
370
    25
100
AcDbCircle
 10
-321.4432443739
 20
-30.4148319979
 30
0.0
 40
2.000000000000004
100
AcDbArc
 50
270.0
 51
289.6538240581
  0
LINE
  5
96
330
1F
100
AcDbEntity
  8
0
  6
Continuous
 62
     7
370
    25
100
AcDbLine
 10
-321.443243437
 20
247.5851685982
 30
0.0
 11
-460.0968235363
 21
247.5851685982
 31
0.0
  0
LINE
  5
97
330
1F
100
AcDbEntity
  8
0
  6
Continuous
 62
     7
370
    25
100
AcDbLine
 10
-460.0968235363
 20
-32.4148325939
 30
0.0
 11
-321.443243437
 21
-32.4148325939
 31
0.0
  0
LINE
  5
98
330
1F
100
AcDbEntity
  8
0
  6
Continuous
 62
     7
370
    25
100
AcDbLine
 10
-320.7705714931
 20
-32.2983204146
 30
0.0
 11
-244.4230639567
 21
-5.0313486476
 31
0.0
  0
LINE
  5
99
330
1F
100
AcDbEntity
  8
0
  6
Continuous
 62
     7
370
    25
100
AcDbLine
 10
-244.4230639567
 20
220.2016846518
 30
0.0
 11
-320.7705714931
 21
247.4686564188
 31
0.0
  0
ARC
  5
9A
330
1F
100
AcDbEntity
  8
0
  6
Continuous
 62
     7
370
    25
100
AcDbCircle
 10
-243.750389376
 20
222.0851680021
 30
0.0
 40
2.0
100
AcDbArc
 50
250.3461759419
 51
270.0
  0
ARC
  5
9B
330
1F
100
AcDbEntity
  8
0
  6
Continuous
 62
     7
370
    25
100
AcDbCircle
 10
-243.750389376
 20
-6.9148319979
 30
0.0
 40
2.000000000000002
100
AcDbArc
 50
90.0
 51
109.6538240581
  0
LINE
  5
9C
330
1F
100
AcDbEntity
  8
0
  6
Continuous
 62
     7
370
    25
100
AcDbLine
 10
-124.0968131651
 20
220.0851650219
 30
0.0
 11
-243.7503882875
 21
220.0851650219
 31
0.0
  0
LINE
  5
9D
330
1F
100
AcDbEntity
  8
0
  6
Continuous
 62
     7
370
    25
100
AcDbLine
 10
-243.7503882875
 20
-4.9148290177
 30
0.0
 11
-124.0968131651
 21
-4.9148290177
 31
0.0
  0
LINE
  5
9E
330
1F
100
AcDbEntity
  8
0
  6
Continuous
 62
     7
370
    25
100
AcDbLine
 10
-460.0968235363
 20
247.5851685982
 30
0.0
 11
-460.0968235363
 21
-32.4148325939
 31
0.0
  0
LINE
  5
9F
330
1F
100
AcDbEntity
  8
0
  6
Continuous
 62
     7
370
    25
100
AcDbLine
 10
-124.0968131651
 20
220.0851650219
 30
0.0
 11
-124.0968131651
 21
-4.9148290177
 31
0.0
  0
LINE
  5
A0
330
1F
100
AcDbEntity
  8
0
  6
Continuous
 62
     1
370
    25
100
AcDbLine
 10
-320.7705714931
 20
247.4686564188
 30
0.0
 11
-320.7705714931
 21
-32.2983204146
 31
0.0
  0
LINE
  5
A1
330
1F
100
AcDbEntity
  8
0
  6
Continuous
 62
     1
370
    25
100
AcDbLine
 10
-321.443243437
 20
247.5851685982
 30
0.0
 11
-321.443243437
 21
-32.4148325939
 31
0.0
  0
LINE
  5
A2
330
1F
100
AcDbEntity
  8
0
  6
Continuous
 62
     1
370
    25
100
AcDbLine
 10
-244.4230639567
 20
220.2016846518
 30
0.0
 11
-244.4230639567
 21
-5.0313486476
 31
0.0
  0
LINE
  5
A3
330
1F
100
AcDbEntity
  8
0
  6
Continuous
 62
     1
370
    25
100
AcDbLine
 10
-243.7503882875
 20
220.0851650219
 30
0.0
 11
-243.7503882875
 21
-4.9148290177
 31
0.0
  0
ARC
  5
A4
330
1F
100
AcDbEntity
  8
0
  6
Continuous
 62
     7
370
    25
100
AcDbCircle
 10
550.5640376772
 20
-30.4148319979
 30
0.0
 40
2.000000000000004
100
AcDbArc
 50
250.3461759419
 51
270.0
  0
ARC
  5
A5
330
1F
100
AcDbEntity
  8
0
  6
Continuous
 62
     7
370
    25
100
AcDbCircle
 10
550.5640376772
 20
245.5851680021
 30
0.0
 40
2.0
100
AcDbArc
 50
90.0
 51
109.6538240581
  0
LINE
  5
A6
330
1F
100
AcDbEntity
  8
0
  6
Continuous
 62
     7
370
    25
100
AcDbLine
 10
550.5640367403
 20
-32.4148325939
 30
0.0
 11
689.2176168397
 21
-32.4148325939
 31
0.0
  0
LINE
  5
A7
330
1F
100
AcDbEntity
  8
0
  6
Continuous
 62
     7
370
    25
100
AcDbLine
 10
689.2176168397
 20
247.5851685982
 30
0.0
 11
550.5640367403
 21
247.5851685982
 31
0.0
  0
LINE
  5
A8
330
1F
100
AcDbEntity
  8
0
  6
Continuous
 62
     7
370
    25
100
AcDbLine
 10
549.8913647964
 20
247.4686564188
 30
0.0
 11
473.54385726
 21
220.2016846518
 31
0.0
  0
LINE
  5
A9
330
1F
100
AcDbEntity
  8
0
  6
Continuous
 62
     7
370
    25
100
AcDbLine
 10
473.54385726
 20
-5.0313486476
 30
0.0
 11
549.8913647964
 21
-32.2983204146
 31
0.0
  0
ARC
  5
AA
330
1F
100
AcDbEntity
  8
0
  6
Continuous
 62
     7
370
    25
100
AcDbCircle
 10
472.8711826793
 20
-6.9148319979
 30
0.0
 40
2.000000000000002
100
AcDbArc
 50
70.3461759419
 51
90.0
  0
ARC
  5
AB
330
1F
100
AcDbEntity
  8
0
  6
Continuous
 62
     7
370
    25
100
AcDbCircle
 10
472.8711826793
 20
222.0851680021
 30
0.0
 40
2.0
100
AcDbArc
 50
270.0
 51
289.6538240581
  0
LINE
  5
AC
330
1F
100
AcDbEntity
  8
0
  6
Continuous
 62
     7
370
    25
100
AcDbLine
 10
353.2176064684
 20
-4.9148290177
 30
0.0
 11
472.8711815908
 21
-4.9148290177
 31
0.0
  0
LINE
  5
AD
330
1F
100
AcDbEntity
  8
0
  6
Continuous
 62
     7
370
    25
100
AcDbLine
 10
472.8711815908
 20
220.0851650219
 30
0.0
 11
353.2176064684
 21
220.0851650219
 31
0.0
  0
LINE
  5
AE
330
1F
100
AcDbEntity
  8
0
  6
Continuous
 62
     7
370
    25
100
AcDbLine
 10
689.2176168397
 20
107.5851680021
 30
0.0
 11
689.2176168397
 21
247.5851685982
 31
0.0
  0
LINE
  5
AF
330
1F
100
AcDbEntity
  8
0
  6
Continuous
 62
     7
370
    25
100
AcDbLine
 10
689.2176168397
 20
-32.4148325939
 30
0.0
 11
689.2176168397
 21
107.5851680021
 31
0.0
  0
LINE
  5
B0
330
1F
100
AcDbEntity
  8
0
  6
Continuous
 62
     7
370
    25
100
AcDbLine
 10
353.2176064684
 20
107.5851680021
 30
0.0
 11
353.2176064684
 21
220.0851650219
 31
0.0
  0
LINE
  5
B1
330
1F
100
AcDbEntity
  8
0
  6
Continuous
 62
     7
370
    25
100
AcDbLine
 10
353.2176064684
 20
-4.9148290177
 30
0.0
 11
353.2176064684
 21
107.5851680021
 31
0.0
  0
LINE
  5
B2
330
1F
100
AcDbEntity
  8
0
  6
Continuous
 62
     1
370
    25
100
AcDbLine
 10
549.8913647964
 20
107.5851680021
 30
0.0
 11
549.8913647964
 21
247.4686564188
 31
0.0
  0
LINE
  5
B3
330
1F
100
AcDbEntity
  8
0
  6
Continuous
 62
     1
370
    25
100
AcDbLine
 10
549.8913647964
 20
-32.2983204146
 30
0.0
 11
549.8913647964
 21
107.5851680021
 31
0.0
  0
LINE
  5
B4
330
1F
100
AcDbEntity
  8
0
  6
Continuous
 62
     1
370
    25
100
AcDbLine
 10
550.5640367403
 20
107.5851680021
 30
0.0
 11
550.5640367403
 21
247.5851685982
 31
0.0
  0
LINE
  5
B5
330
1F
100
AcDbEntity
  8
0
  6
Continuous
 62
     1
370
    25
100
AcDbLine
 10
550.5640367403
 20
-32.4148325939
 30
0.0
 11
550.5640367403
 21
107.5851680021
 31
0.0
  0
LINE
  5
B6
330
1F
100
AcDbEntity
  8
0
  6
Continuous
 62
     1
370
    25
100
AcDbLine
 10
473.54385726
 20
107.5851680021
 30
0.0
 11
473.54385726
 21
220.2016846518
 31
0.0
  0
LINE
  5
B7
330
1F
100
AcDbEntity
  8
0
  6
Continuous
 62
     1
370
    25
100
AcDbLine
 10
473.54385726
 20
-5.0313486476
 30
0.0
 11
473.54385726
 21
107.5851680021
 31
0.0
  0
LINE
  5
B8
330
1F
100
AcDbEntity
  8
0
  6
Continuous
 62
     1
370
    25
100
AcDbLine
 10
472.8711815908
 20
107.5851680021
 30
0.0
 11
472.8711815908
 21
220.0851650219
 31
0.0
  0
LINE
  5
B9
330
1F
100
AcDbEntity
  8
0
  6
Continuous
 62
     1
370
    25
100
AcDbLine
 10
472.8711815908
 20
-4.9148290177
 30
0.0
 11
472.8711815908
 21
107.5851680021
 31
0.0
  0
ARC
  5
BA
330
1F
100
AcDbEntity
  8
0
  6
Continuous
 62
     7
370
    25
100
AcDbCircle
 10
277.395004093
 20
521.9714114536
 30
0.0
 40
2.0
100
AcDbArc
 50
340.3461759419
 51
0.0
  0
ARC
  5
BB
330
1F
100
AcDbEntity
  8
0
  6
Continuous
 62
     7
370
    25
100
AcDbCircle
 10
1.395004093
 20
521.9714114536
 30
0.0
 40
2.000000000000002
100
AcDbArc
 50
180.0
 51
199.6538240581
  0
LINE
  5
BC
330
1F
100
AcDbEntity
  8
0
  6
Continuous
 62
     7
370
    25
100
AcDbLine
 10
279.3950046891
 20
521.9714105167
 30
0.0
 11
279.3950046891
 21
660.624990616
 31
0.0
  0
LINE
  5
BD
330
1F
100
AcDbEntity
  8
0
  6
Continuous
 62
     7
370
    25
100
AcDbLine
 10
-0.604996503
 20
660.624990616
 30
0.0
 11
-0.604996503
 21
521.9714105167
 31
0.0
  0
LINE
  5
BE
330
1F
100
AcDbEntity
  8
0
  6
Continuous
 62
     7
370
    25
100
AcDbLine
 10
-0.4884843236
 20
521.2987385728
 30
0.0
 11
26.7784874433
 21
444.9512310364
 31
0.0
  0
LINE
  5
BF
330
1F
100
AcDbEntity
  8
0
  6
Continuous
 62
     7
370
    25
100
AcDbLine
 10
252.0115207428
 20
444.9512310364
 30
0.0
 11
279.2784925097
 21
521.2987385728
 31
0.0
  0
ARC
  5
C0
330
1F
100
AcDbEntity
  8
0
  6
Continuous
 62
     7
370
    25
100
AcDbCircle
 10
253.895004093
 20
444.2785564557
 30
0.0
 40
2.0
100
AcDbArc
 50
160.3461759419
 51
180.0
  0
ARC
  5
C1
330
1F
100
AcDbEntity
  8
0
  6
Continuous
 62
     7
370
    25
100
AcDbCircle
 10
24.895004093
 20
444.2785564557
 30
0.0
 40
2.000000000000004
100
AcDbArc
 50
0.0
 51
19.6538240581
  0
LINE
  5
C2
330
1F
100
AcDbEntity
  8
0
  6
Continuous
 62
     7
370
    25
100
AcDbLine
 10
251.8950011128
 20
324.6249802448
 30
0.0
 11
251.8950011128
 21
444.2785553672
 31
0.0
  0
LINE
  5
C3
330
1F
100
AcDbEntity
  8
0
  6
Continuous
 62
     7
370
    25
100
AcDbLine
 10
26.8950070733
 20
444.2785553672
 30
0.0
 11
26.8950070733
 21
324.6249802448
 31
0.0
  0
LINE
  5
C4
330
1F
100
AcDbEntity
  8
0
  6
Continuous
 62
     7
370
    25
100
AcDbLine
 10
279.3950046891
 20
660.624990616
 30
0.0
 11
-0.604996503
 21
660.624990616
 31
0.0
  0
LINE
  5
C5
330
1F
100
AcDbEntity
  8
0
  6
Continuous
 62
     7
370
    25
100
AcDbLine
 10
251.8950011128
 20
324.6249802448
 30
0.0
 11
26.8950070733
 21
324.6249802448
 31
0.0
  0
LINE
  5
C6
330
1F
100
AcDbEntity
  8
0
  6
Continuous
 62
     1
370
    25
100
AcDbLine
 10
279.2784925097
 20
521.2987385728
 30
0.0
 11
-0.4884843236
 21
521.2987385728
 31
0.0
  0
LINE
  5
C7
330
1F
100
AcDbEntity
  8
0
  6
Continuous
 62
     1
370
    25
100
AcDbLine
 10
279.3950046891
 20
521.9714105167
 30
0.0
 11
-0.604996503
 21
521.9714105167
 31
0.0
  0
LINE
  5
C8
330
1F
100
AcDbEntity
  8
0
  6
Continuous
 62
     1
370
    25
100
AcDbLine
 10
252.0115207428
 20
444.9512310364
 30
0.0
 11
26.7784874433
 21
444.9512310364
 31
0.0
  0
LINE
  5
C9
330
1F
100
AcDbEntity
  8
0
  6
Continuous
 62
     1
370
    25
100
AcDbLine
 10
251.8950011128
 20
444.2785553672
 30
0.0
 11
26.8950070733
 21
444.2785553672
 31
0.0
  0
ARC
  5
CA
330
1F
100
AcDbEntity
  8
0
  6
Continuous
 62
     7
370
    25
100
AcDbCircle
 10
1.395004093
 20
-306.9178902659
 30
0.0
 40
2.000000000000014
100
AcDbArc
 50
160.3461759419
 51
180.0
  0
ARC
  5
CB
330
1F
100
AcDbEntity
  8
0
  6
Continuous
 62
     7
370
    25
100
AcDbCircle
 10
277.395004093
 20
-306.9178902659
 30
0.0
 40
2.0
100
AcDbArc
 50
0.0
 51
19.6538240581
  0
LINE
  5
CC
330
1F
100
AcDbEntity
  8
0
  6
Continuous
 62
     7
370
    25
100
AcDbLine
 10
-0.604996503
 20
-306.917889329
 30
0.0
 11
-0.604996503
 21
-445.5714694284
 31
0.0
  0
LINE
  5
CD
330
1F
100
AcDbEntity
  8
0
  6
Continuous
 62
     7
370
    25
100
AcDbLine
 10
279.3950046891
 20
-445.5714694284
 30
0.0
 11
279.3950046891
 21
-306.917889329
 31
0.0
  0
LINE
  5
CE
330
1F
100
AcDbEntity
  8
0
  6
Continuous
 62
     7
370
    25
100
AcDbLine
 10
279.2784925097
 20
-306.2452173851
 30
0.0
 11
252.0115207428
 21
-229.8977098487
 31
0.0
  0
LINE
  5
CF
330
1F
100
AcDbEntity
  8
0
  6
Continuous
 62
     7
370
    25
100
AcDbLine
 10
26.7784874433
 20
-229.8977098487
 30
0.0
 11
-0.4884843236
 21
-306.2452173851
 31
0.0
  0
ARC
  5
D0
330
1F
100
AcDbEntity
  8
0
  6
Continuous
 62
     7
370
    25
100
AcDbCircle
 10
24.895004093
 20
-229.225035268
 30
0.0
 40
2.000000000000004
100
AcDbArc
 50
340.3461759419
 51
0.0
  0
ARC
  5
D1
330
1F
100
AcDbEntity
  8
0
  6
Continuous
 62
     7
370
    25
100
AcDbCircle
 10
253.895004093
 20
-229.225035268
 30
0.0
 40
2.0
100
AcDbArc
 50
180.0
 51
199.6538240581
  0
LINE
  5
D2
330
1F
100
AcDbEntity
  8
0
  6
Continuous
 62
     7
370
    25
100
AcDbLine
 10
26.8950070733
 20
-109.5714590572
 30
0.0
 11
26.8950070733
 21
-229.2250341795
 31
0.0
  0
LINE
  5
D3
330
1F
100
AcDbEntity
  8
0
  6
Continuous
 62
     7
370
    25
100
AcDbLine
 10
251.8950011128
 20
-229.2250341795
 30
0.0
 11
251.8950011128
 21
-109.5714590572
 31
0.0
  0
LINE
  5
D4
330
1F
100
AcDbEntity
  8
0
  6
Continuous
 62
     7
370
    25
100
AcDbLine
 10
-0.604996503
 20
-445.5714694284
 30
0.0
 11
279.3950046891
 21
-445.5714694284
 31
0.0
  0
LINE
  5
D5
330
1F
100
AcDbEntity
  8
0
  6
Continuous
 62
     7
370
    25
100
AcDbLine
 10
26.8950070733
 20
-109.5714590572
 30
0.0
 11
251.8950011128
 21
-109.5714590572
 31
0.0
  0
LINE
  5
D6
330
1F
100
AcDbEntity
  8
0
  6
Continuous
 62
     1
370
    25
100
AcDbLine
 10
-0.4884843236
 20
-306.2452173851
 30
0.0
 11
279.2784925097
 21
-306.2452173851
 31
0.0
  0
LINE
  5
D7
330
1F
100
AcDbEntity
  8
0
  6
Continuous
 62
     1
370
    25
100
AcDbLine
 10
-0.604996503
 20
-306.917889329
 30
0.0
 11
279.3950046891
 21
-306.917889329
 31
0.0
  0
LINE
  5
D8
330
1F
100
AcDbEntity
  8
0
  6
Continuous
 62
     1
370
    25
100
AcDbLine
 10
26.7784874433
 20
-229.8977098487
 30
0.0
 11
252.0115207428
 21
-229.8977098487
 31
0.0
  0
LINE
  5
D9
330
1F
100
AcDbEntity
  8
0
  6
Continuous
 62
     1
370
    25
100
AcDbLine
 10
26.8950070733
 20
-229.2250341795
 30
0.0
 11
251.8950011128
 21
-229.2250341795
 31
0.0
  0
LINE
  5
DA
330
1F
100
AcDbEntity
  8
0
  6
Continuous
 62
     7
370
    25
100
AcDbLine
 10
596.3145232095
 20
-135.3744778356
 30
0.0
 11
498.2716364855
 21
-78.7755240724
 31
0.0
  0
LINE
  5
DB
330
1F
100
AcDbEntity
  8
0
  6
Continuous
 62
     7
370
    25
100
AcDbLine
 10
358.2830181091
 20
-321.2692044676
 30
0.0
 11
456.3259048332
 21
-377.8681582307
 31
0.0
  0
LINE
  5
DC
330
1F
100
AcDbEntity
  8
0
  6
Continuous
 62
     7
370
    25
100
AcDbLine
 10
604.9124012804
 20
-141.7430707687
 30
0.0
 11
604.7316387155
 21
-141.5816328985
 31
0.0
  0
SPLINE
  5
DD
330
1F
100
AcDbEntity
  8
0
  6
Continuous
 62
     7
370
    25
100
AcDbSpline
210
0.0
220
0.0
230
1.0
 70
     8
 71
     3
 72
     9
 73
     5
 74
     0
 42
0.000000001
 43
0.00000001
 40
0.0
 40
0.0
 40
0.0
 40
0.0
 40
0.6562959733594
 40
1.0
 40
1.0
 40
1.0
 40
1.0
 10
465.7529720991256
 20
-382.0050135455738
 30
0.0
 10
466.1633476683209
 20
-382.1552441785363
 30
0.0
 10
466.7886380645039
 20
-382.3841510118263
 30
0.0
 10
467.4468458498076
 20
-382.5407086914337
 30
0.0
 10
467.6730745159826
 20
-382.5945181963164
 30
0.0
  0
LINE
  5
DE
330
1F
100
AcDbEntity
  8
0
  6
Continuous
 62
     7
370
    25
100
AcDbLine
 10
476.7928491094
 20
-384.3127420861
 30
0.0
 11
540.5255933094
 21
-390.6412164567
 31
0.0
  0
LINE
  5
DF
330
1F
100
AcDbEntity
  8
0
  6
Continuous
 62
     7
370
    25
100
AcDbLine
 10
649.4824064553
 20
-201.902030443
 30
0.0
 11
612.1305364109
 21
-149.8755988123
 31
0.0
  0
LINE
  5
E0
330
1F
100
AcDbEntity
  8
0
  6
Continuous
 62
     7
370
    25
100
AcDbLine
 10
722.1106407943
 20
-239.7484318236
 30
0.0
 11
644.4786588431
 21
-194.9324425783
 31
0.0
  0
LINE
  5
E1
330
1F
100
AcDbEntity
  8
0
  6
Continuous
 62
     7
370
    25
100
AcDbLine
 10
531.9878034736
 20
-389.7934415106
 30
0.0
 11
609.6197854248
 21
-434.6094307559
 31
0.0
  0
LWPOLYLINE
  5
E2
330
1F
100
AcDbEntity
  8
0
  6
Continuous
 62
     7
370
    25
100
AcDbPolyline
 90
      126
 70
   128
 43
0.0
 10
329.2823775097
 20
-257.1709323409
 10
329.4074166726
 20
-251.3550337687
 10
329.7821969862
 20
-245.4094715703
 10
330.4058017568
 20
-239.3492476916
 10
331.276629404
 20
-233.1896864501
 10
332.3924882918
 20
-226.9463406273
 10
333.7505651179
 20
-220.6349819595
 10
335.3474143776
 20
-214.2715600722
 10
337.1790215835
 20
-207.8721355648
 10
339.2407505822
 20
-201.452884569
 10
341.5273909697
 20
-195.0300196647
 10
344.033173896
 20
-188.6197685887
 10
346.7517615287
 20
-182.2383164385
 10
349.6762892001
 20
-175.9017935089
 10
352.7993706747
 20
-169.6261992458
 10
356.1131139553
 20
-163.4273870393
 10
359.6091528925
 20
-157.321015556
 10
363.278652453
 20
-151.3225152801
 10
367.1123455986
 20
-145.4470307208
 10
371.1005490909
 20
-139.7094112889
 10
375.2331792963
 20
-134.1241474191
 10
379.4998101381
 20
-128.7053492825
 10
383.8896520233
 20
-123.4666981149
 10
388.3916255989
 20
-118.4214462241
 10
392.9943512159
 20
-113.5823074818
 10
397.6862068807
 20
-108.9615394593
 10
402.4553361582
 20
-104.5707928565
 10
407.2896942691
 20
-100.4211578944
 10
412.1770691642
 20
-96.5231399825
 10
417.1051157681
 20
-92.8865547778
 10
422.0613829798
 20
-89.5206099374
 10
427.0333528561
 20
-86.4338094938
 10
432.0084649774
 20
-83.6339397886
 10
436.9741523391
 20
-81.1280730883
 10
441.9178703266
 20
-78.922538689
 10
446.8271312899
 20
-77.0229272928
 10
451.6895328602
 20
-75.4340138231
 10
456.4927958166
 20
-74.1598207368
 10
461.2247805496
 20
-73.203572018
 10
465.8735384276
 20
-72.567675692
 10
470.4273262851
 20
-72.2537397963
 10
474.8746406666
 20
-72.2625586956
 10
479.2042441685
 20
-72.5941100427
 10
483.4051996837
 20
-73.2475593439
 10
487.4669020114
 20
-74.221247795
 10
491.3790831257
 20
-75.512725742
 10
495.1318648588
 20
-77.1187222675
 10
498.71576417
 20
-79.0351847355
 10
502.1217352919
 20
-81.2572727113
 10
505.3411644623
 20
-83.7793731706
 10
508.3659226077
 20
-86.5951126714
 10
511.1883706119
 20
-89.6973786482
 10
513.8013803892
 20
-93.0783315805
 10
516.1983506894
 20
-96.7294384552
 10
518.3732229029
 20
-100.6414697263
 10
520.3205021345
 20
-104.8045479861
 10
522.0352782763
 20
-109.2081540511
 10
523.5132102029
 20
-113.8411634629
 10
524.7505679182
 20
-118.6918769104
 10
525.7442220187
 20
-123.7480369589
 10
526.4916753036
 20
-128.9968706395
 10
526.9910206281
 20
-134.4251244259
 10
527.24101466
 20
-140.0190788806
 10
527.24101466
 20
-145.764608345
 10
526.9910206281
 20
-151.6471997652
 10
526.4916753036
 20
-157.6519853914
 10
525.7442220187
 20
-163.7638102655
 10
524.7505679182
 20
-169.9672189186
 10
523.5132102029
 20
-176.246555175
 10
522.0352782763
 20
-182.5859484678
 10
520.3205021345
 20
-188.9693929241
 10
518.3732229029
 20
-195.3807519287
 10
516.1983506894
 20
-201.8038372083
 10
513.8013803892
 20
-208.2224270841
 10
511.1883706119
 20
-214.6202968883
 10
508.3659226077
 20
-220.9812919668
 10
505.3411644623
 20
-227.2893428864
 10
502.1217352919
 20
-233.5285171456
 10
498.71576417
 20
-239.6830556742
 10
495.1318648588
 20
-245.7374002096
 10
491.3790831257
 20
-251.6762662966
 10
487.4669020114
 20
-257.484652413
 10
483.4051996837
 20
-263.1478825519
 10
479.2042441685
 20
-268.651651849
 10
474.8746406666
 20
-273.9820569958
 10
470.4273262851
 20
-279.1256357835
 10
465.8735384276
 20
-284.069391435
 10
461.2247805496
 20
-288.8008367079
 10
456.4927958166
 20
-293.3080212694
 10
451.6895328602
 20
-297.5795575483
 10
446.8271312899
 20
-301.6046534341
 10
441.9178703266
 20
-305.3731540969
 10
436.9741523391
 20
-308.8755149901
 10
432.0084649774
 20
-312.1029088817
 10
427.0333528561
 20
-315.0471813643
 10
422.0613829798
 20
-317.7008951495
 10
417.1051157681
 20
-320.0573346274
 10
412.1770691642
 20
-322.1105509208
 10
407.2896942691
 20
-323.8553759514
 10
402.4553361582
 20
-325.2873720559
 10
397.6862068807
 20
-326.4029449115
 10
392.9943512159
 20
-327.1992781334
 10
388.3916255989
 20
-327.6743332726
 10
383.8896520233
 20
-327.8269494325
 10
379.4998101381
 20
-327.6567018216
 10
375.2331792963
 20
-327.164050799
 10
371.1005490909
 20
-326.3502202015
 10
367.1123455986
 20
-325.2172825084
 10
363.278652453
 20
-323.7680858388
 10
359.6091528925
 20
-322.0062995745
 10
356.1131139553
 20
-319.93636873
 10
352.7993706747
 20
-317.5635230772
 10
349.6762892001
 20
-314.8937619325
 10
346.7517615287
 20
-311.9338267795
 10
344.033173896
 20
-308.6911890985
 10
341.5273909697
 20
-305.1740534076
 10
339.2407505822
 20
-301.3912872986
 10
337.1790215835
 20
-297.352457936
 10
335.3474143776
 20
-293.0677620953
 10
333.7505651179
 20
-288.5480231193
 10
332.3924882918
 20
-283.8046665791
 10
331.276629404
 20
-278.8496640049
 10
330.4058017568
 20
-273.6955389636
 10
329.7821969862
 20
-268.3553138273
 10
329.4074166726
 20
-262.8424637687
 10
329.2823775097
 20
-257.1709323409
  0
LWPOLYLINE
  5
E3
330
1F
100
AcDbEntity
  8
0
  6
Continuous
 62
     7
370
    25
100
AcDbPolyline
 90
      114
 70
   128
 43
0.0
 10
347.2428882177
 20
-246.8025502064
 10
347.3681275781
 20
-241.529810752
 10
347.7434505324
 20
-236.128775016
 10
348.3676980424
 20
-230.6161377117
 10
349.2389418898
 20
-225.0089356884
 10
350.3544846762
 20
-219.3245042053
 10
351.7108914334
 20
-213.5804050698
 10
353.3039527451
 20
-207.7944053422
 10
355.1287585033
 20
-201.9843784813
 10
357.179655762
 20
-196.1682921741
 10
359.4503172255
 20
-190.364114044
 10
361.9337149069
 20
-184.5897873138
 10
364.622183348
 20
-178.863166933
 10
367.5073985464
 20
-173.2019435293
 10
370.5804569803
 20
-167.6236251648
 10
373.8318492668
 20
-162.1454430364
 10
377.2515286512
 20
-156.7843423563
 10
380.828926811
 20
-151.5568880565
 10
384.5529854669
 20
-146.4792343731
 10
388.412193261
 20
-141.5670792218
 10
392.394622635
 20
-136.8356124902
 10
396.487964075
 20
-132.2994475991
 10
400.6795629899
 20
-127.9726062967
 10
404.9564671261
 20
-123.8684730356
 10
409.3054515928
 20
-119.9997257725
 10
413.7130794481
 20
-116.3783192442
 10
418.1657234302
 20
-113.0154541707
 10
422.6496219347
 20
-109.9215266895
 10
427.1509158101
 20
-107.1060888628
 10
431.6556912456
 20
-104.5778543373
 10
436.1500240585
 20
-102.3446362755
 10
440.6200226641
 20
-100.4133286336
 10
445.0518717863
 20
-98.789911346
 10
449.4318710653
 20
-97.4793915358
 10
453.74648346
 20
-96.4858303256
 10
457.9823708101
 20
-95.8122979733
 10
462.1264412506
 20
-95.4608647514
 10
466.1658874082
 20
-95.4326336503
 10
470.0882232787
 20
-95.7276765029
 10
473.8813237409
 20
-96.3450902623
 10
477.5334587998
 20
-97.2829711499
 10
481.0333541736
 20
-98.5384040138
 10
484.3701781221
 20
-100.1075246863
 10
487.5336257409
 20
-101.9854713215
 10
490.5139136928
 20
-104.1664482744
 10
493.3018328914
 20
-106.6437078538
 10
495.8887643062
 20
-109.4095959527
 10
498.2667158409
 20
-112.4555611763
 10
500.4283276023
 20
-115.7721974289
 10
502.3669298515
 20
-119.3492378357
 10
504.0765271993
 20
-123.1756368711
 10
505.5518302162
 20
-127.23956732
 10
506.7882817742
 20
-131.5284628657
 10
507.7820623153
 20
-136.0290682819
 10
508.5300951194
 20
-140.7274759343
 10
509.0300726465
 20
-145.6091607654
 10
509.2804512685
 20
-150.6590306737
 10
509.2804512685
 20
-155.8614816481
 10
509.0300726465
 20
-161.2004325601
 10
508.5300951194
 20
-166.6593791566
 10
507.7820623153
 20
-172.2214471011
 10
506.7882817742
 20
-177.869447107
 10
505.5518302162
 20
-183.5859192348
 10
504.0765271993
 20
-189.3531982902
 10
502.3669298515
 20
-195.1534564086
 10
500.4283276023
 20
-200.9687593296
 10
498.2667158409
 20
-206.7811393985
 10
495.8887643062
 20
-212.5726290239
 10
493.3018328914
 20
-218.3253245583
 10
490.5139136928
 20
-224.021447129
 10
487.5336257409
 20
-229.6433913081
 10
484.3701781221
 20
-235.1737768197
 10
481.0333541736
 20
-240.5955124179
 10
477.5334587998
 20
-245.8918384676
 10
473.8813237409
 20
-251.0463847399
 10
470.0882232787
 20
-256.0432190744
 10
466.1658874082
 20
-260.8668945285
 10
462.1264412506
 20
-265.5025086881
 10
457.9823708101
 20
-269.935717353
 10
453.74648346
 20
-274.1528364346
 10
449.4318710653
 20
-278.1408206601
 10
445.0518717863
 20
-281.8873403752
 10
440.6200226641
 20
-285.3808271678
 10
436.1500240585
 20
-288.610470062
 10
431.6556912456
 20
-291.5662982141
 10
427.1509158101
 20
-294.2391666979
 10
422.6496219347
 20
-296.6208121566
 10
418.1657234302
 20
-298.7038836932
 10
413.7130794481
 20
-300.481931934
 10
409.3054515928
 20
-301.9494642063
 10
404.9564671261
 20
-303.1019475286
 10
400.6795629899
 20
-303.9358226747
 10
396.487964075
 20
-304.4484984673
 10
392.394622635
 20
-304.6384050056
 10
388.412193261
 20
-304.5049533578
 10
384.5529854669
 20
-304.0485446823
 10
380.828926811
 20
-303.2705976012
 10
377.2515286512
 20
-302.1735192992
 10
373.8318492668
 20
-300.7606963948
 10
370.5804569803
 20
-299.0364918948
 10
367.5073985464
 20
-297.006251275
 10
364.622183348
 20
-294.6762264328
 10
361.9337149069
 20
-292.0536456429
 10
359.4503172255
 20
-289.1465888441
 10
357.179655762
 20
-285.9640606363
 10
355.1287585033
 20
-282.5158899015
 10
353.3039527451
 20
-278.812738923
 10
351.7108914334
 20
-274.8660486349
 10
350.3544846762
 20
-270.6880234066
 10
349.2389418898
 20
-266.2915702092
 10
348.3676980424
 20
-261.6902849206
 10
347.7434505324
 20
-256.8983884499
 10
347.3681275781
 20
-251.9306913731
 10
347.2428882177
 20
-246.8025502064
  0
ARC
  5
E4
330
1F
100
AcDbEntity
  8
0
  6
Continuous
 62
     7
370
    25
100
AcDbCircle
 10
572.6321777996
 20
-176.3375262103
 30
0.0
 40
47.31622149183971
100
AcDbArc
 50
47.6237753112
 51
59.9661083167
  0
ARC
  5
E5
330
1F
100
AcDbEntity
  8
0
  6
Continuous
 62
     7
370
    25
100
AcDbCircle
 10
479.9777912787
 20
-336.8236690543
 30
0.0
 40
47.37152967964123
100
AcDbArc
 50
240.0473035752
 51
252.1825592063
  0
ARC
  5
E6
330
1F
100
AcDbEntity
  8
0
  6
Continuous
 62
     7
370
    25
100
AcDbCircle
 10
564.4912945742
 20
-184.5358855464
 30
0.0
 40
58.87615201073825
100
AcDbArc
 50
20.861435079
 51
46.378210686
  0
ARC
  5
E7
330
1F
100
AcDbEntity
  8
0
  6
Continuous
 62
     7
370
    25
100
AcDbCircle
 10
482.9221612775
 20
-326.1483546321
 30
0.0
 40
58.47504466196637
100
AcDbArc
 50
255.0973814061
 51
279.6895325149
  0
ARC
  5
E8
330
1F
100
AcDbEntity
  8
0
  6
Continuous
 62
     7
370
    25
100
AcDbCircle
 10
609.9871253869
 20
-230.1315050846
 30
0.0
 40
48.54668335951803
100
AcDbArc
 50
26.2801070863
 51
35.5555021418
  0
ARC
  5
E9
330
1F
100
AcDbEntity
  8
0
  6
Continuous
 62
     7
370
    25
100
AcDbCircle
 10
545.2579821836
 20
-341.6884593192
 30
0.0
 40
49.1809712777575
100
AcDbArc
 50
264.4782284424
 51
275.8392197584
  0
LWPOLYLINE
  5
EA
330
1F
100
AcDbEntity
  8
0
  6
Continuous
 62
     7
370
    25
100
AcDbPolyline
 90
       58
 70
   128
 43
0.0
 10
722.1106407943
 20
-239.7484318236
 10
722.1152137274
 20
-239.7510725798
 10
725.1806857285
 20
-241.7256831063
 10
728.059526216
 20
-244.0006194185
 10
730.7426841543
 20
-246.568732316
 10
733.2217091001
 20
-249.4219388063
 10
735.488809155
 20
-252.5512616541
 10
737.5368456963
 20
-255.9468537163
 10
739.359380793
 20
-259.5980283641
 10
740.950671937
 20
-263.4933051108
 10
742.3057194584
 20
-267.6204233047
 10
743.4202559888
 20
-271.9663984019
 10
744.290772803
 20
-276.5175569504
 10
744.9145356243
 20
-281.2595776564
 10
745.2895793558
 20
-286.1775423351
 10
745.4147238857
 20
-291.2559762163
 10
745.2895793558
 20
-296.4788988962
 10
744.9145356243
 20
-301.8298798502
 10
744.290772803
 20
-307.2920817802
 10
743.4202559888
 20
-312.8483176487
 10
742.3057194584
 20
-318.4811092332
 10
740.950671937
 20
-324.1727319939
 10
739.359380793
 20
-329.9052743882
 10
737.5368456963
 20
-335.6607032684
 10
735.488809155
 20
-341.420907989
 10
733.2217091001
 20
-347.1677688443
 10
730.7426841543
 20
-352.8831966129
 10
728.059526216
 20
-358.5492177251
 10
725.1806857285
 20
-364.1479925143
 10
722.1152137274
 20
-369.6619216767
 10
718.8727565727
 20
-375.0736462706
 10
715.4635243384
 20
-380.3661328853
 10
711.8982328608
 20
-385.5227435981
 10
708.1881063725
 20
-390.5272405377
 10
704.3448142821
 20
-395.363889301
 10
700.3804527352
 20
-400.017463514
 10
696.3074945648
 20
-404.4733284783
 10
692.1387524128
 20
-408.7174563767
 10
687.8873431686
 20
-412.7365015559
 10
683.5666445056
 20
-416.5178134499
 10
679.1902514164
 20
-420.0494920902
 10
674.7719327496
 20
-423.3204314477
 10
670.3255897213
 20
-426.3203373
 10
665.8652131096
 20
-429.0397701934
 10
661.4048364978
 20
-431.4701785185
 10
656.9584934695
 20
-433.6039110541
 10
652.5401748027
 20
-435.4342538453
 10
648.1637817135
 20
-436.9554511124
 10
643.8430830505
 20
-438.16271171
 10
639.5916738063
 20
-439.0522391622
 10
635.4229316543
 20
-439.6212385023
 10
631.3499734839
 20
-439.8679109452
 10
627.385611937
 20
-439.7914911468
 10
623.5423198466
 20
-439.392212979
 10
619.8321933583
 20
-438.6713369033
 10
616.2669018807
 20
-437.6311241105
 10
612.8576696464
 20
-436.2748532488
 10
609.6197854248
 20
-434.6094307559
  0
LWPOLYLINE
  5
EB
330
1F
100
AcDbEntity
  8
0
  6
Continuous
 62
     1
370
    25
100
AcDbPolyline
 90
       59
 70
   128
 43
0.0
 10
604.5231171825
 20
-141.3833733592
 10
606.4088093317
 20
-143.1940664346
 10
609.231257336
 20
-146.2963324114
 10
611.8442671132
 20
-149.6772853436
 10
614.2412374134
 20
-153.3283922184
 10
616.416109627
 20
-157.2404234895
 10
618.3633888586
 20
-161.4035017493
 10
620.0781650004
 20
-165.8071078143
 10
621.556096927
 20
-170.4401172261
 10
622.7934546423
 20
-175.2908306735
 10
623.7871087428
 20
-180.3469907221
 10
624.5345620277
 20
-185.5958244026
 10
625.0339073521
 20
-191.0240781891
 10
625.2839013841
 20
-196.6180326438
 10
625.2839013841
 20
-202.3635621082
 10
625.0339073521
 20
-208.2461535284
 10
624.5345620277
 20
-214.2509391546
 10
623.7871087428
 20
-220.3627640287
 10
622.7934546423
 20
-226.5661726817
 10
621.556096927
 20
-232.8455089382
 10
620.0781650004
 20
-239.184902231
 10
618.3633888586
 20
-245.5683466873
 10
616.416109627
 20
-251.9797056919
 10
614.2412374134
 20
-258.4027909715
 10
611.8442671132
 20
-264.8213808473
 10
609.231257336
 20
-271.2192506515
 10
606.4088093317
 20
-277.58024573
 10
603.3840511863
 20
-283.8882966496
 10
600.1646220159
 20
-290.1274709088
 10
596.7586508941
 20
-296.2820094374
 10
593.1747515829
 20
-302.3363539728
 10
589.4219698497
 20
-308.2752200597
 10
585.5097887354
 20
-314.0836061762
 10
581.4480864077
 20
-319.7468363151
 10
577.2471308925
 20
-325.2506056122
 10
572.9175273906
 20
-330.5810107589
 10
568.4702130092
 20
-335.7245895467
 10
563.9164251517
 20
-340.6683451981
 10
559.2676672736
 20
-345.3997904711
 10
554.5356825406
 20
-349.9069750325
 10
549.7324195842
 20
-354.1785113115
 10
544.870018014
 20
-358.2036071973
 10
539.9607570507
 20
-361.9721078601
 10
535.0170390631
 20
-365.4744687533
 10
530.0513517015
 20
-368.7018626448
 10
525.0762395801
 20
-371.6461351275
 10
520.1042697039
 20
-374.2998489127
 10
515.1480024922
 20
-376.6562883906
 10
510.2199558883
 20
-378.7095046839
 10
505.3325809931
 20
-380.4543297146
 10
500.4982228822
 20
-381.8863258191
 10
495.7290936048
 20
-383.0018986747
 10
491.0372379399
 20
-383.7982318966
 10
486.4345123229
 20
-384.2732870358
 10
481.9325387473
 20
-384.4259031957
 10
477.5426968622
 20
-384.2556555848
 10
473.2760660203
 20
-383.7630045622
 10
469.1434358149
 20
-382.9491739647
 10
465.482808166
 20
-381.9230846686
  0
LWPOLYLINE
  5
EC
330
1F
100
AcDbEntity
  8
0
  6
Continuous
 62
     1
370
    25
100
AcDbPolyline
 90
       22
 70
   128
 43
0.0
 10
447.1415849754
 20
-280.1369757943
 10
448.0299299065
 20
-275.7113385092
 10
449.3863366638
 20
-269.9672393738
 10
450.9793979755
 20
-264.1812396461
 10
452.8042037337
 20
-258.3712127853
 10
454.8551009923
 20
-252.5551264781
 10
457.1257624559
 20
-246.7509483479
 10
459.6091601372
 20
-240.9766216178
 10
462.2976285784
 20
-235.250001237
 10
465.1828437768
 20
-229.5887778333
 10
468.2559022106
 20
-224.0104594688
 10
471.5072944972
 20
-218.5322773403
 10
474.9269738815
 20
-213.1711766602
 10
478.5043720414
 20
-207.9437223605
 10
482.2284306973
 20
-202.8660686771
 10
486.0876384913
 20
-197.9539135258
 10
490.0700678654
 20
-193.2224467942
 10
494.1634093054
 20
-188.6862819031
 10
498.3550082202
 20
-184.3594406007
 10
502.6319123564
 20
-180.2553073396
 10
506.9808968232
 20
-176.3865600765
 10
507.0885188009
 20
-176.2945906674
  0
LWPOLYLINE
  5
ED
330
1F
100
AcDbEntity
  8
0
  6
Continuous
 62
     1
370
    25
100
AcDbPolyline
 90
       47
 70
   128
 43
0.0
 10
619.5077837969
 20
-163.5695508836
 10
620.4757810034
 20
-166.1572779193
 10
621.9524801347
 20
-170.7864331894
 10
623.1888157889
 20
-175.6331039202
 10
624.1816480258
 20
-180.68505549
 10
624.928469108
 20
-185.9295255752
 10
625.4274035007
 20
-191.3532591316
 10
625.6771867984
 20
-196.9425595337
 10
625.6771867984
 20
-202.6833072075
 10
625.4274035007
 20
-208.5610012664
 10
624.928469108
 20
-214.5607922109
 10
624.1816480258
 20
-220.6675235638
 10
623.1888157889
 20
-226.8657748347
 10
621.9524801347
 20
-233.1398883279
 10
620.4757810034
 20
-239.4740041239
 10
618.7624378545
 20
-245.8521315581
 10
616.8167812765
 20
-252.2581522655
 10
614.6437161091
 20
-258.6758962233
 10
612.2487425159
 20
-265.0891417533
 10
609.6379085696
 20
-271.4816854796
 10
606.8178049839
 20
-277.8373909981
 10
603.7955651126
 20
-284.1401919183
 10
600.5788122672
 20
-290.3741770298
 10
597.1756807892
 20
-296.5235842213
 10
593.5947633675
 20
-302.5728917303
 10
589.8451057695
 20
-308.5068151016
 10
585.9361752309
 20
-314.3103741046
 10
581.8778551878
 20
-319.968889691
 10
577.6803978611
 20
-325.4680782878
 10
573.3543979147
 20
-330.7940487532
 10
568.9107845534
 20
-335.9333434403
 10
564.3607872781
 20
-340.872988385
 10
559.7158990075
 20
-345.6004963441
 10
554.9878497365
 20
-350.1039245882
 10
550.1885854624
 20
-354.3719114016
 10
545.3302299896
 20
-358.3936616304
 10
540.4250559535
 20
-362.1590120789
 10
535.4854518935
 20
-365.6584626864
 10
530.5238972279
 20
-368.8831788055
 10
525.5529257051
 20
-371.8250001345
 10
520.5850941226
 20
-374.4764952773
 10
515.6329507166
 20
-376.8309678246
 10
510.7090068449
 20
-378.8824848684
 10
505.8256991207
 20
-380.6258501919
 10
500.9953633996
 20
-382.0566679563
 10
496.2302038285
 20
-383.1713118987
 10
492.7640549095
 20
-383.7892080085
  0
LWPOLYLINE
  5
EE
330
1F
100
AcDbEntity
  8
0
  6
Continuous
 62
     1
370
    25
100
AcDbPolyline
 90
       45
 70
   128
 43
0.0
 10
653.5160337135
 20
-208.6369800816
 10
654.351990112
 20
-210.4000153079
 10
655.9449302514
 20
-214.2993257045
 10
657.3013791556
 20
-218.4307193523
 10
658.4170694559
 20
-222.7811949772
 10
659.2884924274
 20
-227.3370654387
 10
659.9128979881
 20
-232.0839987954
 10
660.2883315779
 20
-237.0070563306
 10
660.4136078167
 20
-242.090748825
 10
660.2883315779
 20
-247.319082186
 10
659.9128979881
 20
-252.6756061175
 10
659.2884924274
 20
-258.1434627892
 10
658.4170694559
 20
-263.7054567977
 10
657.3013791556
 20
-269.3440810243
 10
655.9449302514
 20
-275.0415972409
 10
654.351990112
 20
-280.7800771748
 10
652.5275689438
 20
-286.541467907
 10
650.4774092549
 20
-292.3076405412
 10
648.2079647817
 20
-298.0604479963
 10
645.7263688781
 20
-303.7818010505
 10
643.0404345162
 20
-309.4536835501
 10
640.1586068707
 20
-315.0582649537
 10
637.0899633193
 20
-320.5779003321
 10
633.8441502218
 20
-325.9952246598
 10
630.4313829206
 20
-331.2932014848
 10
626.8624035937
 20
-336.4551472593
 10
623.1484312055
 20
-341.4648332368
 10
619.3011615063
 20
-346.3064854727
 10
615.3326932759
 20
-350.964882156
 10
611.2555151522
 20
-355.4253612132
 10
607.0824555824
 20
-359.6738857029
 10
602.8266433097
 20
-363.6970909614
 10
598.5014704952
 20
-367.482318059
 10
594.1205439856
 20
-371.0176601841
 10
589.6976497516
 20
-374.2919831721
 10
585.2467015216
 20
-377.2949977449
 10
580.7817052201
 20
-380.017249621
 10
576.3167089186
 20
-382.4501727436
 10
571.8657606886
 20
-384.5861136115
 10
567.4428664546
 20
-386.4183556097
 10
563.061939945
 20
-387.9411235677
 10
558.7367671305
 20
-389.149634707
 10
554.4809548578
 20
-390.0400857084
 10
550.307895288
 20
-390.6096732416
 10
550.2615205837
 20
-390.6142453558
  0
ARC
  5
EF
330
1F
100
AcDbEntity
  8
0
  6
Continuous
 62
     1
370
    25
100
AcDbCircle
 10
632.1672679775
 20
-317.7255172322
 30
0.0
 40
187.3507142757982
100
AcDbArc
 50
132.0711236152
 51
167.9342545099
  0
LWPOLYLINE
  5
F0
330
1F
100
AcDbEntity
  8
0
  6
Continuous
 62
     1
370
    25
100
AcDbPolyline
 90
       51
 70
   128
 43
0.0
 10
647.9254702612
 20
-199.7334142406
 10
648.6138547379
 20
-200.578864137
 10
650.8809547927
 20
-203.7081869849
 10
652.9289913341
 20
-207.103779047
 10
654.7515264308
 20
-210.7549536948
 10
656.3428175748
 20
-214.6502304416
 10
657.6978650962
 20
-218.7773486355
 10
658.8124016266
 20
-223.1233237327
 10
659.6829184408
 20
-227.6744822812
 10
660.3066812621
 20
-232.4165029872
 10
660.6817249935
 20
-237.3344676659
 10
660.8068695235
 20
-242.412901547
 10
660.6817249935
 20
-247.635824227
 10
660.3066812621
 20
-252.986805181
 10
659.6829184408
 20
-258.4490071109
 10
658.8124016266
 20
-264.0052429794
 10
657.6978650962
 20
-269.6380345639
 10
656.3428175748
 20
-275.3296573246
 10
654.7515264308
 20
-281.062199719
 10
652.9289913341
 20
-286.8176285991
 10
650.8809547927
 20
-292.5778333197
 10
648.6138547379
 20
-298.324694175
 10
646.134829792
 20
-304.0401219436
 10
643.4516718538
 20
-309.7061430558
 10
640.5728313663
 20
-315.3049178451
 10
637.5073593652
 20
-320.8188470075
 10
634.2649022104
 20
-326.2305716014
 10
630.8556699762
 20
-331.523058216
 10
627.2903784986
 20
-336.6796689289
 10
623.5802520103
 20
-341.6841658685
 10
619.7369599199
 20
-346.5208146318
 10
615.772598373
 20
-351.1743888448
 10
611.6996402026
 20
-355.6302538091
 10
607.5308980505
 20
-359.8743817075
 10
603.2794888064
 20
-363.8934268866
 10
598.9587901433
 20
-367.6747387806
 10
594.5823970541
 20
-371.2064174209
 10
590.1640783874
 20
-374.4773567785
 10
585.7177353591
 20
-377.4772626308
 10
581.2573587473
 20
-380.1966955242
 10
576.7969821356
 20
-382.6271038493
 10
572.3506391073
 20
-384.7608363849
 10
567.9323204405
 20
-386.5911791761
 10
563.5559273513
 20
-388.1123764431
 10
559.2352286882
 20
-389.3196370408
 10
554.9838194441
 20
-390.209164493
 10
550.8150772921
 20
-390.778163833
 10
546.7421191216
 20
-391.024836276
 10
542.7777575747
 20
-390.9484164775
 10
538.9344654844
 20
-390.5491383097
 10
537.8690247642
 20
-390.3774292382
  0
ENDSEC
  0
SECTION
  2
OBJECTS
  0
DICTIONARY
  5
C
330
0
100
AcDbDictionary
281
     1
  3
ACAD_GROUP
350
D
  3
ACAD_LAYOUT
350
1A
  3
ACAD_MLINESTYLE
350
17
  3
ACAD_PLOTSETTINGS
350
19
  3
ACAD_PLOTSTYLENAME
350
E
  3
ACAD_SCALELIST
350
47
  0
DICTIONARY
  5
D
102
{ACAD_REACTORS
330
C
102
}
330
C
100
AcDbDictionary
281
     1
  0
DICTIONARY
  5
1A
102
{ACAD_REACTORS
330
C
102
}
330
C
100
AcDbDictionary
281
     1
  3
Layout1
350
1E
  3
Layout2
350
26
  3
Model
350
22
  0
DICTIONARY
  5
17
102
{ACAD_REACTORS
330
C
102
}
330
C
100
AcDbDictionary
281
     1
  3
Standard
350
18
  0
DICTIONARY
  5
19
102
{ACAD_REACTORS
330
C
102
}
330
C
100
AcDbDictionary
281
     1
  0
ACDBDICTIONARYWDFLT
  5
E
102
{ACAD_REACTORS
330
C
102
}
330
C
100
AcDbDictionary
281
     1
  3
Normal
350
F
100
AcDbDictionaryWithDefault
340
F
  0
DICTIONARY
  5
47
102
{ACAD_REACTORS
330
C
102
}
330
C
100
AcDbDictionary
281
     1
  3
A0
350
48
  3
A1
350
49
  3
A2
350
4A
  3
A3
350
4B
  3
A4
350
4C
  3
A5
350
4D
  3
A6
350
4E
  3
A7
350
4F
  3
A8
350
50
  3
A9
350
51
  3
B0
350
52
  3
B1
350
53
  3
B2
350
54
  3
B3
350
55
  3
B4
350
56
  3
B5
350
57
  3
B6
350
58
  3
B7
350
59
  3
B8
350
5A
  3
B9
350
5B
  3
C0
350
5C
  3
C1
350
5D
  3
C2
350
5E
  3
C3
350
5F
  3
C4
350
60
  3
C5
350
61
  3
C6
350
62
  3
C7
350
63
  3
C8
350
64
  3
C9
350
65
  3
D0
350
66
  3
D1
350
67
  3
D2
350
68
  0
LAYOUT
  5
1E
102
{ACAD_REACTORS
330
1A
102
}
330
1A
100
AcDbPlotSettings
  1

  2
none_device
  4

  6

 40
0.0
 41
0.0
 42
0.0
 43
0.0
 44
0.0
 45
0.0
 46
0.0
 47
0.0
 48
0.0
 49
0.0
140
0.0
141
0.0
142
1.0
143
1.0
 70
   688
 72
     1
 73
     0
 74
     5
  7

 75
    16
147
1.0
148
0.0
149
0.0
100
AcDbLayout
  1
Layout1
 70
     1
 71
     1
 10
0.0
 20
0.0
 11
420.0
 21
297.0
 12
0.0
 22
0.0
 32
0.0
 14
1.0000000000E+20
 24
1.0000000000E+20
 34
1.0000000000E+20
 15
-1.0000000000E+20
 25
-1.0000000000E+20
 35
-1.0000000000E+20
146
0.0
 13
0.0
 23
0.0
 33
0.0
 16
1.0
 26
0.0
 36
0.0
 17
0.0
 27
1.0
 37
0.0
 76
     0
330
1B
  0
LAYOUT
  5
26
102
{ACAD_REACTORS
330
1A
102
}
330
1A
100
AcDbPlotSettings
  1

  2
none_device
  4

  6

 40
0.0
 41
0.0
 42
0.0
 43
0.0
 44
0.0
 45
0.0
 46
0.0
 47
0.0
 48
0.0
 49
0.0
140
0.0
141
0.0
142
1.0
143
1.0
 70
   688
 72
     1
 73
     0
 74
     5
  7

 75
    16
147
1.0
148
0.0
149
0.0
100
AcDbLayout
  1
Layout2
 70
     1
 71
     2
 10
0.0
 20
0.0
 11
0.0
 21
0.0
 12
0.0
 22
0.0
 32
0.0
 14
0.0
 24
0.0
 34
0.0
 15
0.0
 25
0.0
 35
0.0
146
0.0
 13
0.0
 23
0.0
 33
0.0
 16
1.0
 26
0.0
 36
0.0
 17
0.0
 27
1.0
 37
0.0
 76
     0
330
23
  0
LAYOUT
  5
22
102
{ACAD_REACTORS
330
1A
102
}
330
1A
100
AcDbPlotSettings
  1

  2
none_device
  4
Letter_(8.50_x_11.00_Inches)
  6

 40
6.35
 41
6.35
 42
6.35000508
 43
6.35000508
 44
215.9
 45
279.4
 46
0.0
 47
0.0
 48
0.0
 49
0.0
140
0.0
141
0.0
142
1.0
143
1.0
 70
  1712
 72
     1
 73
     0
 74
     0
  7

 75
     0
147
1.0
148
0.0
149
0.0
100
AcDbLayout
  1
Model
 70
     1
 71
     0
 10
0.0
 20
0.0
 11
279.4
 21
215.9
 12
0.0
 22
0.0
 32
0.0
 14
0.0
 24
0.0
 34
0.0
 15
279.4
 25
215.9
 35
0.0
146
0.0
 13
0.0
 23
0.0
 33
0.0
 16
1.0
 26
0.0
 36
0.0
 17
0.0
 27
1.0
 37
0.0
 76
     0
330
1F
331
29
  0
MLINESTYLE
  5
18
102
{ACAD_REACTORS
330
17
102
}
330
17
100
AcDbMlineStyle
  2
Standard
 70
     0
  3

 62
   256
 51
90.0
 52
90.0
 71
     2
 49
0.5
 62
   256
  6
BYLAYER
 49
-0.5
 62
   256
  6
BYLAYER
  0
ACDBPLACEHOLDER
  5
F
102
{ACAD_REACTORS
330
E
102
}
330
E
  0
SCALE
  5
48
102
{ACAD_REACTORS
330
47
102
}
330
47
100
AcDbScale
 70
     0
300
1:1
140
1.0
141
1.0
290
     1
  0
SCALE
  5
49
102
{ACAD_REACTORS
330
47
102
}
330
47
100
AcDbScale
 70
     0
300
1:2
140
1.0
141
2.0
290
     0
  0
SCALE
  5
4A
102
{ACAD_REACTORS
330
47
102
}
330
47
100
AcDbScale
 70
     0
300
1:4
140
1.0
141
4.0
290
     0
  0
SCALE
  5
4B
102
{ACAD_REACTORS
330
47
102
}
330
47
100
AcDbScale
 70
     0
300
1:5
140
1.0
141
5.0
290
     0
  0
SCALE
  5
4C
102
{ACAD_REACTORS
330
47
102
}
330
47
100
AcDbScale
 70
     0
300
1:8
140
1.0
141
8.0
290
     0
  0
SCALE
  5
4D
102
{ACAD_REACTORS
330
47
102
}
330
47
100
AcDbScale
 70
     0
300
1:10
140
1.0
141
10.0
290
     0
  0
SCALE
  5
4E
102
{ACAD_REACTORS
330
47
102
}
330
47
100
AcDbScale
 70
     0
300
1:16
140
1.0
141
16.0
290
     0
  0
SCALE
  5
4F
102
{ACAD_REACTORS
330
47
102
}
330
47
100
AcDbScale
 70
     0
300
1:20
140
1.0
141
20.0
290
     0
  0
SCALE
  5
50
102
{ACAD_REACTORS
330
47
102
}
330
47
100
AcDbScale
 70
     0
300
1:30
140
1.0
141
30.0
290
     0
  0
SCALE
  5
51
102
{ACAD_REACTORS
330
47
102
}
330
47
100
AcDbScale
 70
     0
300
1:40
140
1.0
141
40.0
290
     0
  0
SCALE
  5
52
102
{ACAD_REACTORS
330
47
102
}
330
47
100
AcDbScale
 70
     0
300
1:50
140
1.0
141
50.0
290
     0
  0
SCALE
  5
53
102
{ACAD_REACTORS
330
47
102
}
330
47
100
AcDbScale
 70
     0
300
1:100
140
1.0
141
100.0
290
     0
  0
SCALE
  5
54
102
{ACAD_REACTORS
330
47
102
}
330
47
100
AcDbScale
 70
     0
300
2:1
140
2.0
141
1.0
290
     0
  0
SCALE
  5
55
102
{ACAD_REACTORS
330
47
102
}
330
47
100
AcDbScale
 70
     0
300
4:1
140
4.0
141
1.0
290
     0
  0
SCALE
  5
56
102
{ACAD_REACTORS
330
47
102
}
330
47
100
AcDbScale
 70
     0
300
8:1
140
8.0
141
1.0
290
     0
  0
SCALE
  5
57
102
{ACAD_REACTORS
330
47
102
}
330
47
100
AcDbScale
 70
     0
300
10:1
140
10.0
141
1.0
290
     0
  0
SCALE
  5
58
102
{ACAD_REACTORS
330
47
102
}
330
47
100
AcDbScale
 70
     0
300
100:1
140
100.0
141
1.0
290
     0
  0
SCALE
  5
59
102
{ACAD_REACTORS
330
47
102
}
330
47
100
AcDbScale
 70
     0
300
1/128" = 1'-0"
140
0.0078125
141
12.0
290
     0
  0
SCALE
  5
5A
102
{ACAD_REACTORS
330
47
102
}
330
47
100
AcDbScale
 70
     0
300
1/64" = 1'-0"
140
0.015625
141
12.0
290
     0
  0
SCALE
  5
5B
102
{ACAD_REACTORS
330
47
102
}
330
47
100
AcDbScale
 70
     0
300
1/32" = 1'-0"
140
0.03125
141
12.0
290
     0
  0
SCALE
  5
5C
102
{ACAD_REACTORS
330
47
102
}
330
47
100
AcDbScale
 70
     0
300
1/16" = 1'-0"
140
0.0625
141
12.0
290
     0
  0
SCALE
  5
5D
102
{ACAD_REACTORS
330
47
102
}
330
47
100
AcDbScale
 70
     0
300
3/32" = 1'-0"
140
0.09375
141
12.0
290
     0
  0
SCALE
  5
5E
102
{ACAD_REACTORS
330
47
102
}
330
47
100
AcDbScale
 70
     0
300
1/8" = 1'-0"
140
0.125
141
12.0
290
     0
  0
SCALE
  5
5F
102
{ACAD_REACTORS
330
47
102
}
330
47
100
AcDbScale
 70
     0
300
3/16" = 1'-0"
140
0.1875
141
12.0
290
     0
  0
SCALE
  5
60
102
{ACAD_REACTORS
330
47
102
}
330
47
100
AcDbScale
 70
     0
300
1/4" = 1'-0"
140
0.25
141
12.0
290
     0
  0
SCALE
  5
61
102
{ACAD_REACTORS
330
47
102
}
330
47
100
AcDbScale
 70
     0
300
3/8" = 1'-0"
140
0.375
141
12.0
290
     0
  0
SCALE
  5
62
102
{ACAD_REACTORS
330
47
102
}
330
47
100
AcDbScale
 70
     0
300
1/2" = 1'-0"
140
0.5
141
12.0
290
     0
  0
SCALE
  5
63
102
{ACAD_REACTORS
330
47
102
}
330
47
100
AcDbScale
 70
     0
300
3/4" = 1'-0"
140
0.75
141
12.0
290
     0
  0
SCALE
  5
64
102
{ACAD_REACTORS
330
47
102
}
330
47
100
AcDbScale
 70
     0
300
1" = 1'-0"
140
1.0
141
12.0
290
     0
  0
SCALE
  5
65
102
{ACAD_REACTORS
330
47
102
}
330
47
100
AcDbScale
 70
     0
300
1-1/2" = 1'-0"
140
1.5
141
12.0
290
     0
  0
SCALE
  5
66
102
{ACAD_REACTORS
330
47
102
}
330
47
100
AcDbScale
 70
     0
300
3" = 1'-0"
140
3.0
141
12.0
290
     0
  0
SCALE
  5
67
102
{ACAD_REACTORS
330
47
102
}
330
47
100
AcDbScale
 70
     0
300
6" = 1'-0"
140
6.0
141
12.0
290
     0
  0
SCALE
  5
68
102
{ACAD_REACTORS
330
47
102
}
330
47
100
AcDbScale
 70
     0
300
1'-0" = 1'-0"
140
12.0
141
12.0
290
     0
  0
ENDSEC
  0
EOF
